ISO-10303-21;
HEADER;
FILE_DESCRIPTION (( 'STEP AP203' ),
    '1' );
FILE_NAME ('CAD_ChannelLine D Profil, 2000 mm.step',
    '2020-06-23T06:14:53',
    ( '' ),
    ( '' ),
    'SwSTEP 2.0',
    'SolidWorks 2019',
    '' );
FILE_SCHEMA (( 'CONFIG_CONTROL_DESIGN' ));
ENDSEC;

DATA;
#1 = CARTESIAN_POINT ( 'NONE',  ( 10.25000000000000000, 10.00000000000000000, 0.0000000000000000000 ) ) ;
#2 = ORIENTED_EDGE ( 'NONE', *, *, #23, .T. ) ;
#3 = APPROVAL_ROLE ( '' ) ;
#4 = CARTESIAN_POINT ( 'NONE',  ( -10.25000000000000000, 9.999999999999998224, 2000.000000000000000 ) ) ;
#5 = PERSON_AND_ORGANIZATION ( #54, #230 ) ;
#6 = CARTESIAN_POINT ( 'NONE',  ( 0.0000000000000000000, 0.0000000000000000000, 0.0000000000000000000 ) ) ;
#7 = CARTESIAN_POINT ( 'NONE',  ( 0.0000000000000000000, 0.0000000000000000000, 2000.000000000000000 ) ) ;
#8 = EDGE_CURVE ( 'NONE', #68, #148, #139, .T. ) ;
#9 =( NAMED_UNIT ( * ) PLANE_ANGLE_UNIT ( ) SI_UNIT ( $, .RADIAN. ) );
#10 = AXIS2_PLACEMENT_3D ( 'NONE', #212, #46, #115 ) ;
#11 = CARTESIAN_POINT ( 'NONE',  ( 10.25000000000000000, 0.0000000000000000000, 2000.000000000000000 ) ) ;
#12 = DATE_TIME_ROLE ( 'classification_date' ) ;
#13 = APPROVAL_STATUS ( 'not_yet_approved' ) ;
#14 = LOCAL_TIME ( 8, 14, 53.00000000000000000, #26 ) ;
#15 = CALENDAR_DATE ( 2020, 23, 6 ) ;
#16 = DIRECTION ( 'NONE',  ( 0.0000000000000000000, 1.000000000000000000, 0.0000000000000000000 ) ) ;
#17 = EDGE_CURVE ( 'NONE', #148, #223, #140, .T. ) ;
#18 = PRODUCT_DEFINITION_SHAPE ( 'NONE', 'NONE',  #108 ) ;
#19 = VECTOR ( 'NONE', #74, 1000.000000000000000 ) ;
#20 = DIRECTION ( 'NONE',  ( -1.000000000000000000, 0.0000000000000000000, 0.0000000000000000000 ) ) ;
#21 = ORIENTED_EDGE ( 'NONE', *, *, #187, .F. ) ;
#22 = VERTEX_POINT ( 'NONE', #218 ) ;
#23 = EDGE_CURVE ( 'NONE', #102, #67, #51, .T. ) ;
#24 = CARTESIAN_POINT ( 'NONE',  ( -10.25000000000000000, 9.999999999999998224, 0.0000000000000000000 ) ) ;
#25 = APPROVAL_PERSON_ORGANIZATION ( #127, #224, #3 ) ;
#26 = COORDINATED_UNIVERSAL_TIME_OFFSET ( 1, 0, .AHEAD. ) ;
#27 = LINE ( 'NONE', #45, #83 ) ;
#28 = SECURITY_CLASSIFICATION_LEVEL ( 'unclassified' ) ;
#29 = CARTESIAN_POINT ( 'NONE',  ( 10.25000000000000000, 0.0000000000000000000, 0.0000000000000000000 ) ) ;
#30 = LINE ( 'NONE', #11, #137 ) ;
#31 = AXIS2_PLACEMENT_3D ( 'NONE', #7, #76, #188 ) ;
#32 = VERTEX_POINT ( 'NONE', #123 ) ;
#33 = CC_DESIGN_PERSON_AND_ORGANIZATION_ASSIGNMENT ( #99, #213, ( #204 ) ) ;
#34 = FACE_OUTER_BOUND ( 'NONE', #38, .T. ) ;
#35 = EDGE_LOOP ( 'NONE', ( #101, #104, #82, #128 ) ) ;
#36 = ADVANCED_FACE ( 'NONE', ( #34 ), #185, .F. ) ;
#37 = VECTOR ( 'NONE', #154, 1000.000000000000000 ) ;
#38 = EDGE_LOOP ( 'NONE', ( #2, #57, #164, #178 ) ) ;
#39 = APPROVAL_DATE_TIME ( #211, #224 ) ;
#40 = DIRECTION ( 'NONE',  ( 1.000000000000000000, 0.0000000000000000000, 0.0000000000000000000 ) ) ;
#41 = PERSON_AND_ORGANIZATION ( #54, #230 ) ;
#42 = LINE ( 'NONE', #111, #64 ) ;
#43 = PERSON_AND_ORGANIZATION ( #54, #230 ) ;
#44 = EDGE_CURVE ( 'NONE', #22, #32, #160, .T. ) ;
#45 = CARTESIAN_POINT ( 'NONE',  ( 10.25000000000000000, 10.00000000000000000, 2000.000000000000000 ) ) ;
#46 = DIRECTION ( 'NONE',  ( 1.000000000000000000, 0.0000000000000000000, -0.0000000000000000000 ) ) ;
#47 = VECTOR ( 'NONE', #77, 1000.000000000000000 ) ;
#48 = APPROVAL_DATE_TIME ( #121, #206 ) ;
#49 = ORIENTED_EDGE ( 'NONE', *, *, #23, .F. ) ;
#50 = CC_DESIGN_SECURITY_CLASSIFICATION ( #215, ( #156 ) ) ;
#51 = LINE ( 'NONE', #109, #97 ) ;
#52 = CC_DESIGN_PERSON_AND_ORGANIZATION_ASSIGNMENT ( #100, #174, ( #215 ) ) ;
#53 = DIRECTION ( 'NONE',  ( -1.000000000000000000, -8.462065736472229849E-17, 0.0000000000000000000 ) ) ;
#54 = PERSON ( 'UNSPECIFIED', 'UNSPECIFIED', 'UNSPECIFIED', ('UNSPECIFIED'), ('UNSPECIFIED'), ('UNSPECIFIED') ) ;
#55 = ORIENTED_EDGE ( 'NONE', *, *, #187, .T. ) ;
#56 = CARTESIAN_POINT ( 'NONE',  ( 0.0000000000000000000, 0.0000000000000000000, 0.0000000000000000000 ) ) ;
#57 = ORIENTED_EDGE ( 'NONE', *, *, #175, .F. ) ;
#58 = FACE_OUTER_BOUND ( 'NONE', #35, .T. ) ;
#59 = EDGE_LOOP ( 'NONE', ( #196, #146, #130, #86 ) ) ;
#60 = EDGE_CURVE ( 'NONE', #67, #22, #208, .T. ) ;
#61 = FACE_OUTER_BOUND ( 'NONE', #181, .T. ) ;
#62 = FACE_OUTER_BOUND ( 'NONE', #59, .T. ) ;
#63 = ADVANCED_FACE ( 'NONE', ( #90 ), #124, .F. ) ;
#64 = VECTOR ( 'NONE', #91, 1000.000000000000000 ) ;
#65 = PERSON_AND_ORGANIZATION ( #54, #230 ) ;
#66 = LOCAL_TIME ( 8, 14, 53.00000000000000000, #157 ) ;
#67 = VERTEX_POINT ( 'NONE', #1 ) ;
#68 = VERTEX_POINT ( 'NONE', #221 ) ;
#69 = CC_DESIGN_APPROVAL ( #119, ( #156 ) ) ;
#70 = ORIENTED_EDGE ( 'NONE', *, *, #98, .T. ) ;
#71 = DIRECTION ( 'NONE',  ( 0.0000000000000000000, 1.000000000000000000, 0.0000000000000000000 ) ) ;
#72 = EDGE_LOOP ( 'NONE', ( #183, #217, #70, #159 ) ) ;
#73 = MECHANICAL_CONTEXT ( 'NONE', #176, 'mechanical' ) ;
#74 = DIRECTION ( 'NONE',  ( 0.0000000000000000000, -1.000000000000000000, 0.0000000000000000000 ) ) ;
#75 = CALENDAR_DATE ( 2020, 23, 6 ) ;
#76 = DIRECTION ( 'NONE',  ( 0.0000000000000000000, 0.0000000000000000000, 1.000000000000000000 ) ) ;
#77 = DIRECTION ( 'NONE',  ( -0.0000000000000000000, -0.0000000000000000000, -1.000000000000000000 ) ) ;
#78 = CARTESIAN_POINT ( 'NONE',  ( 10.25000000000000000, 0.0000000000000000000, 2000.000000000000000 ) ) ;
#79 = CARTESIAN_POINT ( 'NONE',  ( 10.25000000000000000, 10.00000000000000000, 2000.000000000000000 ) ) ;
#80 = CC_DESIGN_DATE_AND_TIME_ASSIGNMENT ( #225, #94, ( #108 ) ) ;
#81 = AXIS2_PLACEMENT_3D ( 'NONE', #103, #20, #84 ) ;
#82 = ORIENTED_EDGE ( 'NONE', *, *, #98, .F. ) ;
#83 = VECTOR ( 'NONE', #93, 1000.000000000000000 ) ;
#84 = DIRECTION ( 'NONE',  ( 0.0000000000000000000, 0.0000000000000000000, 1.000000000000000000 ) ) ;
#85 = CARTESIAN_POINT ( 'NONE',  ( -10.25000000000000000, 0.0000000000000000000, 2000.000000000000000 ) ) ;
#86 = ORIENTED_EDGE ( 'NONE', *, *, #182, .T. ) ;
#87 = PERSON_AND_ORGANIZATION_ROLE ( 'creator' ) ;
#88 = ADVANCED_FACE ( 'NONE', ( #126 ), #202, .T. ) ;
#89 = VECTOR ( 'NONE', #53, 1000.000000000000000 ) ;
#90 = FACE_OUTER_BOUND ( 'NONE', #197, .T. ) ;
#91 = DIRECTION ( 'NONE',  ( -0.0000000000000000000, -0.0000000000000000000, -1.000000000000000000 ) ) ;
#92 = PLANE ( 'NONE',  #120 ) ;
#93 = DIRECTION ( 'NONE',  ( -0.0000000000000000000, -0.0000000000000000000, -1.000000000000000000 ) ) ;
#94 = DATE_TIME_ROLE ( 'creation_date' ) ;
#95 = PLANE ( 'NONE',  #131 ) ;
#96 = APPLICATION_CONTEXT ( 'configuration controlled 3d designs of mechanical parts and assemblies' ) ;
#97 = VECTOR ( 'NONE', #16, 1000.000000000000000 ) ;
#98 = EDGE_CURVE ( 'NONE', #167, #68, #190, .T. ) ;
#99 = PERSON_AND_ORGANIZATION ( #54, #230 ) ;
#100 = PERSON_AND_ORGANIZATION ( #54, #230 ) ;
#101 = ORIENTED_EDGE ( 'NONE', *, *, #60, .T. ) ;
#102 = VERTEX_POINT ( 'NONE', #29 ) ;
#103 = CARTESIAN_POINT ( 'NONE',  ( 10.25000000000000000, 0.0000000000000000000, 2000.000000000000000 ) ) ;
#104 = ORIENTED_EDGE ( 'NONE', *, *, #182, .F. ) ;
#105 = ADVANCED_BREP_SHAPE_REPRESENTATION ( 'CAD_ChannelLine D Profil, 2000 mm', ( #220, #158 ), #233 ) ;
#106 = CC_DESIGN_PERSON_AND_ORGANIZATION_ASSIGNMENT ( #43, #189, ( #156 ) ) ;
#107 = ORIENTED_EDGE ( 'NONE', *, *, #60, .F. ) ;
#108 = PRODUCT_DEFINITION ( 'UNKNOWN', '', #156, #199 ) ;
#109 = CARTESIAN_POINT ( 'NONE',  ( 10.25000000000000000, 0.0000000000000000000, 0.0000000000000000000 ) ) ;
#110 = APPROVAL_STATUS ( 'not_yet_approved' ) ;
#111 = CARTESIAN_POINT ( 'NONE',  ( -10.25000000000000000, 9.999999999999998224, 2000.000000000000000 ) ) ;
#112 = CALENDAR_DATE ( 2020, 23, 6 ) ;
#113 = CARTESIAN_POINT ( 'NONE',  ( 0.0000000000000000000, 0.0000000000000000000, 0.0000000000000000000 ) ) ;
#114 = CARTESIAN_POINT ( 'NONE',  ( 10.25000000000000000, 10.00000000000000000, 2000.000000000000000 ) ) ;
#115 = DIRECTION ( 'NONE',  ( -0.0000000000000000000, 0.0000000000000000000, -1.000000000000000000 ) ) ;
#116 = CC_DESIGN_PERSON_AND_ORGANIZATION_ASSIGNMENT ( #5, #149, ( #156 ) ) ;
#117 = DIRECTION ( 'NONE',  ( 1.000000000000000000, 8.462065736472229849E-17, 0.0000000000000000000 ) ) ;
#118 = VECTOR ( 'NONE', #40, 1000.000000000000000 ) ;
#119 = APPROVAL ( #110, 'UNSPECIFIED' ) ;
#120 = AXIS2_PLACEMENT_3D ( 'NONE', #114, #207, #117 ) ;
#121 = DATE_AND_TIME ( #15, #66 ) ;
#122 = EDGE_CURVE ( 'NONE', #223, #102, #30, .T. ) ;
#123 = CARTESIAN_POINT ( 'NONE',  ( -10.25000000000000000, 0.0000000000000000000, 0.0000000000000000000 ) ) ;
#124 = PLANE ( 'NONE',  #136 ) ;
#125 = VECTOR ( 'NONE', #71, 1000.000000000000000 ) ;
#126 = FACE_OUTER_BOUND ( 'NONE', #72, .T. ) ;
#127 = PERSON_AND_ORGANIZATION ( #54, #230 ) ;
#128 = ORIENTED_EDGE ( 'NONE', *, *, #175, .T. ) ;
#129 = DIRECTION ( 'NONE',  ( 0.0000000000000000000, 0.0000000000000000000, 1.000000000000000000 ) ) ;
#130 = ORIENTED_EDGE ( 'NONE', *, *, #8, .F. ) ;
#131 = AXIS2_PLACEMENT_3D ( 'NONE', #6, #227, #210 ) ;
#132 = LINE ( 'NONE', #173, #47 ) ;
#133 = APPLICATION_PROTOCOL_DEFINITION ( 'international standard', 'config_control_design', 1994, #176 ) ;
#134 = PLANE ( 'NONE',  #10 ) ;
#135 = CARTESIAN_POINT ( 'NONE',  ( 10.25000000000000000, 0.0000000000000000000, 2000.000000000000000 ) ) ;
#136 = AXIS2_PLACEMENT_3D ( 'NONE', #226, #198, #162 ) ;
#137 = VECTOR ( 'NONE', #170, 1000.000000000000000 ) ;
#138 = CALENDAR_DATE ( 2020, 23, 6 ) ;
#139 = LINE ( 'NONE', #4, #201 ) ;
#140 = LINE ( 'NONE', #85, #118 ) ;
#141 = EDGE_CURVE ( 'NONE', #148, #32, #132, .T. ) ;
#142 = CC_DESIGN_APPROVAL ( #206, ( #215 ) ) ;
#143 = ORIENTED_EDGE ( 'NONE', *, *, #141, .T. ) ;
#144 = APPLICATION_PROTOCOL_DEFINITION ( 'international standard', 'config_control_design', 1994, #96 ) ;
#145 = CC_DESIGN_APPROVAL ( #224, ( #108 ) ) ;
#146 = ORIENTED_EDGE ( 'NONE', *, *, #141, .F. ) ;
#147 = COORDINATED_UNIVERSAL_TIME_OFFSET ( 1, 0, .AHEAD. ) ;
#148 = VERTEX_POINT ( 'NONE', #150 ) ;
#149 = PERSON_AND_ORGANIZATION_ROLE ( 'creator' ) ;
#150 = CARTESIAN_POINT ( 'NONE',  ( -10.25000000000000000, 0.0000000000000000000, 2000.000000000000000 ) ) ;
#151 = CC_DESIGN_PERSON_AND_ORGANIZATION_ASSIGNMENT ( #191, #87, ( #108 ) ) ;
#152 =( LENGTH_UNIT ( ) NAMED_UNIT ( * ) SI_UNIT ( .MILLI., .METRE. ) );
#153 = LOCAL_TIME ( 8, 14, 53.00000000000000000, #203 ) ;
#154 = DIRECTION ( 'NONE',  ( 1.000000000000000000, 0.0000000000000000000, 0.0000000000000000000 ) ) ;
#155 = ADVANCED_FACE ( 'NONE', ( #61 ), #95, .F. ) ;
#156 = PRODUCT_DEFINITION_FORMATION_WITH_SPECIFIED_SOURCE ( 'ANY', '', #204, .NOT_KNOWN. ) ;
#157 = COORDINATED_UNIVERSAL_TIME_OFFSET ( 1, 0, .AHEAD. ) ;
#158 = AXIS2_PLACEMENT_3D ( 'NONE', #56, #129, #193 ) ;
#159 = ORIENTED_EDGE ( 'NONE', *, *, #8, .T. ) ;
#160 = LINE ( 'NONE', #24, #19 ) ;
#161 = UNCERTAINTY_MEASURE_WITH_UNIT (LENGTH_MEASURE( 1.000000000000000082E-05 ), #152, 'distance_accuracy_value', 'NONE');
#162 = DIRECTION ( 'NONE',  ( 0.0000000000000000000, -0.0000000000000000000, 1.000000000000000000 ) ) ;
#163 = PRODUCT_RELATED_PRODUCT_CATEGORY ( 'detail', '', ( #204 ) ) ;
#164 = ORIENTED_EDGE ( 'NONE', *, *, #237, .F. ) ;
#165 =( NAMED_UNIT ( * ) SI_UNIT ( $, .STERADIAN. ) SOLID_ANGLE_UNIT ( ) );
#166 = VECTOR ( 'NONE', #192, 1000.000000000000000 ) ;
#167 = VERTEX_POINT ( 'NONE', #79 ) ;
#168 = APPROVAL_DATE_TIME ( #171, #119 ) ;
#169 = LINE ( 'NONE', #113, #37 ) ;
#170 = DIRECTION ( 'NONE',  ( -0.0000000000000000000, -0.0000000000000000000, -1.000000000000000000 ) ) ;
#171 = DATE_AND_TIME ( #209, #14 ) ;
#172 = LOCAL_TIME ( 8, 14, 53.00000000000000000, #147 ) ;
#173 = CARTESIAN_POINT ( 'NONE',  ( -10.25000000000000000, 0.0000000000000000000, 2000.000000000000000 ) ) ;
#174 = PERSON_AND_ORGANIZATION_ROLE ( 'classification_officer' ) ;
#175 = EDGE_CURVE ( 'NONE', #167, #67, #27, .T. ) ;
#176 = APPLICATION_CONTEXT ( 'configuration controlled 3d designs of mechanical parts and assemblies' ) ;
#177 = COORDINATED_UNIVERSAL_TIME_OFFSET ( 1, 0, .AHEAD. ) ;
#178 = ORIENTED_EDGE ( 'NONE', *, *, #122, .T. ) ;
#179 = LOCAL_TIME ( 8, 14, 53.00000000000000000, #177 ) ;
#180 = ORIENTED_EDGE ( 'NONE', *, *, #122, .F. ) ;
#181 = EDGE_LOOP ( 'NONE', ( #21, #232, #107, #49 ) ) ;
#182 = EDGE_CURVE ( 'NONE', #68, #22, #42, .T. ) ;
#183 = ORIENTED_EDGE ( 'NONE', *, *, #17, .T. ) ;
#184 = APPROVAL_STATUS ( 'not_yet_approved' ) ;
#185 = PLANE ( 'NONE',  #81 ) ;
#186 = APPROVAL_ROLE ( '' ) ;
#187 = EDGE_CURVE ( 'NONE', #32, #102, #169, .T. ) ;
#188 = DIRECTION ( 'NONE',  ( 1.000000000000000000, 0.0000000000000000000, -0.0000000000000000000 ) ) ;
#189 = PERSON_AND_ORGANIZATION_ROLE ( 'design_supplier' ) ;
#190 = LINE ( 'NONE', #229, #166 ) ;
#191 = PERSON_AND_ORGANIZATION ( #54, #230 ) ;
#192 = DIRECTION ( 'NONE',  ( -1.000000000000000000, -8.462065736472229849E-17, 0.0000000000000000000 ) ) ;
#193 = DIRECTION ( 'NONE',  ( 1.000000000000000000, 0.0000000000000000000, 0.0000000000000000000 ) ) ;
#194 = CLOSED_SHELL ( 'NONE', ( #63, #36, #214, #200, #88, #155 ) ) ;
#195 = SHAPE_DEFINITION_REPRESENTATION ( #18, #105 ) ;
#196 = ORIENTED_EDGE ( 'NONE', *, *, #44, .T. ) ;
#197 = EDGE_LOOP ( 'NONE', ( #55, #180, #234, #143 ) ) ;
#198 = DIRECTION ( 'NONE',  ( 0.0000000000000000000, 1.000000000000000000, 0.0000000000000000000 ) ) ;
#199 = DESIGN_CONTEXT ( 'detailed design', #96, 'design' ) ;
#200 = ADVANCED_FACE ( 'NONE', ( #62 ), #134, .F. ) ;
#201 = VECTOR ( 'NONE', #205, 1000.000000000000000 ) ;
#202 = PLANE ( 'NONE',  #31 ) ;
#203 = COORDINATED_UNIVERSAL_TIME_OFFSET ( 1, 0, .AHEAD. ) ;
#204 = PRODUCT ( 'CAD_ChannelLine D Profil, 2000 mm', 'CAD_ChannelLine D Profil, 2000 mm', '', ( #73 ) ) ;
#205 = DIRECTION ( 'NONE',  ( 0.0000000000000000000, -1.000000000000000000, 0.0000000000000000000 ) ) ;
#206 = APPROVAL ( #13, 'UNSPECIFIED' ) ;
#207 = DIRECTION ( 'NONE',  ( 8.462065736472229849E-17, -1.000000000000000000, 0.0000000000000000000 ) ) ;
#208 = LINE ( 'NONE', #235, #89 ) ;
#209 = CALENDAR_DATE ( 2020, 23, 6 ) ;
#210 = DIRECTION ( 'NONE',  ( 1.000000000000000000, 0.0000000000000000000, -0.0000000000000000000 ) ) ;
#211 = DATE_AND_TIME ( #112, #153 ) ;
#212 = CARTESIAN_POINT ( 'NONE',  ( -10.25000000000000000, 9.999999999999998224, 2000.000000000000000 ) ) ;
#213 = PERSON_AND_ORGANIZATION_ROLE ( 'design_owner' ) ;
#214 = ADVANCED_FACE ( 'NONE', ( #58 ), #92, .F. ) ;
#215 = SECURITY_CLASSIFICATION ( '', '', #28 ) ;
#216 = APPROVAL_ROLE ( '' ) ;
#217 = ORIENTED_EDGE ( 'NONE', *, *, #237, .T. ) ;
#218 = CARTESIAN_POINT ( 'NONE',  ( -10.25000000000000000, 9.999999999999998224, 0.0000000000000000000 ) ) ;
#219 = CC_DESIGN_DATE_AND_TIME_ASSIGNMENT ( #231, #12, ( #215 ) ) ;
#220 = MANIFOLD_SOLID_BREP ( 'Aufsatz-Linear austragen1', #194 ) ;
#221 = CARTESIAN_POINT ( 'NONE',  ( -10.25000000000000000, 9.999999999999998224, 2000.000000000000000 ) ) ;
#222 = LINE ( 'NONE', #78, #125 ) ;
#223 = VERTEX_POINT ( 'NONE', #135 ) ;
#224 = APPROVAL ( #184, 'UNSPECIFIED' ) ;
#225 = DATE_AND_TIME ( #75, #172 ) ;
#226 = CARTESIAN_POINT ( 'NONE',  ( 0.0000000000000000000, 0.0000000000000000000, 2000.000000000000000 ) ) ;
#227 = DIRECTION ( 'NONE',  ( 0.0000000000000000000, 0.0000000000000000000, 1.000000000000000000 ) ) ;
#228 = APPROVAL_PERSON_ORGANIZATION ( #65, #206, #216 ) ;
#229 = CARTESIAN_POINT ( 'NONE',  ( 10.25000000000000000, 10.00000000000000000, 2000.000000000000000 ) ) ;
#230 = ORGANIZATION ( 'UNSPECIFIED', 'UNSPECIFIED', '' ) ;
#231 = DATE_AND_TIME ( #138, #179 ) ;
#232 = ORIENTED_EDGE ( 'NONE', *, *, #44, .F. ) ;
#233 =( GEOMETRIC_REPRESENTATION_CONTEXT ( 3 ) GLOBAL_UNCERTAINTY_ASSIGNED_CONTEXT ( ( #161 ) ) GLOBAL_UNIT_ASSIGNED_CONTEXT ( ( #152, #9, #165 ) ) REPRESENTATION_CONTEXT ( 'NONE', 'WORKASPACE' ) );
#234 = ORIENTED_EDGE ( 'NONE', *, *, #17, .F. ) ;
#235 = CARTESIAN_POINT ( 'NONE',  ( 10.25000000000000000, 10.00000000000000000, 0.0000000000000000000 ) ) ;
#236 = APPROVAL_PERSON_ORGANIZATION ( #41, #119, #186 ) ;
#237 = EDGE_CURVE ( 'NONE', #223, #167, #222, .T. ) ;
ENDSEC;
END-ISO-10303-21;
